Agenzie Viaggi, Tour Operator, Voli Low Cost, Last Minute, Offerte e Pacchetti Viaggi in Italia e nel Mondo ai prezzi più bassi!
Agenzie Viaggi, Tour Operator, Voli Low Cost, Last Minute, Offerte e Pacchetti Viaggi in Italia e nel Mondo ai prezzi più bassi!

Viaggio Proposto da: TRAVELASTMINUTE | Altri Viaggi Proposti da quest'agenzia
KENYA - VILLAGE WATAMU BEACH | KENYA | Kenya

Per informazioni & prenotazioni
Tel 011/ 8173798 (multilinee)
email: info@travelastminute.it
web: www.travelastminute.it
- - - - - - - - - - - - - - - - - - - - - - - - - - - - - - -


VILLAGE WATAMU BEACH - KENYA
ALL INCLUSIVE


PARTENZE DA MILANO,ROMA



PERIODI----------------------QUOTA
Dal--------------Al

30/10----------03/12---------910 €
04/12----------08/12---------990 €
09/12----------17/12---------910 €
18/12----------21/12---------1.297 €
22/12----------24/12---------1.590 €
25/12----------31/12---------1.990 €
01/01----------03/01---------1.850 €
04/01----------06/01---------1.390 €
07/01----------28/01---------1.090 €
29/01----------25/02---------1.150 €
26/02----------04/03---------995 €
05/03----------18/03---------958 €
19/03----------01/04---------910 €
09/07----------22/07---------1.097 €
23/07----------29/07---------1.190 €
30/07----------07/08---------1.290 €
08/08----------15/08---------1.450 €
16/08----------19/08---------1.370 €
20/08----------26/08---------1.190 €
27/08----------02/09---------1.167 €
03/09----------04/11---------1.098 €
05/11----------17/12---------990 €



- - - - - - - - - - - - - - - - - - - - - - - - - - - - - - - - - - - - - - - - - - - - - - - -


DISPONIBILITA' LIMITATE IN SUPEROFFERTA!


LA QUOTA INCLUDE:
VOLO A/R
TRASFERIMENTI AEROPORTO/HOTEL/AEROPORTO
7 NOTTI IN HOTEL
SISTEMAZIONE IN CAMERA DOPPIA
TRATTAMENTO COME DA OFFERTA

LA QUOTA NON INCLUDE:
TASSE AEROPORTUALI
ASSICURAZIONE MEDICO/BAGAGLIO


Eventuale supplemento voli partenze 15/12 -31/12 & 15/07 -25/08


- - - - - - - - - - - - - - - - - - - - - - - - - - - - - - -
Per informazioni & prenotazioni
Tel 011/ 8173798 (multilinee)
email: info@travelastminute.it
web: www.travelastminute.it